ISO-10303-21;
HEADER;
/* Generated by software containing ST-Developer
 * from STEP Tools, Inc. (www.steptools.com) 
 */

FILE_DESCRIPTION(
/* description */ (''),
/* implementation_level */ '2;1');

FILE_NAME(
/* name */ '/Users/ayahni/Downloads/Black Angle Corner Connector.step',

/* time_stamp */ '2019-09-19T10:28:01-05:00',
/* author */ (''),
/* organization */ (''),
/* preprocessor_version */ 'ST-DEVELOPER v18',
/* originating_system */ 'Autodesk Translation Framework v8.6.0.1094',
/* authorisation */ '');

FILE_SCHEMA (('AUTOMOTIVE_DESIGN { 1 0 10303 214 3 1 1 }'));
ENDSEC;

DATA;
#10=MECHANICAL_DESIGN_GEOMETRIC_PRESENTATION_REPRESENTATION('',(#13),#482);
#11=SHAPE_REPRESENTATION_RELATIONSHIP('SRR','None',#489,#12);
#12=ADVANCED_BREP_SHAPE_REPRESENTATION('',(#14),#481);
#13=STYLED_ITEM('',(#498),#14);
#14=MANIFOLD_SOLID_BREP('Body1',#272);
#15=FACE_BOUND('',#97,.T.);
#16=FACE_BOUND('',#100,.T.);
#17=FACE_BOUND('',#105,.T.);
#18=FACE_BOUND('',#107,.T.);
#19=FACE_BOUND('',#111,.T.);
#20=PLANE('',#299);
#21=PLANE('',#300);
#22=PLANE('',#301);
#23=PLANE('',#302);
#24=PLANE('',#303);
#25=PLANE('',#304);
#26=PLANE('',#310);
#27=PLANE('',#311);
#28=PLANE('',#317);
#29=LINE('',#419,#48);
#30=LINE('',#427,#49);
#31=LINE('',#432,#50);
#32=LINE('',#434,#51);
#33=LINE('',#436,#52);
#34=LINE('',#437,#53);
#35=LINE('',#441,#54);
#36=LINE('',#443,#55);
#37=LINE('',#445,#56);
#38=LINE('',#446,#57);
#39=LINE('',#449,#58);
#40=LINE('',#450,#59);
#41=LINE('',#451,#60);
#42=LINE('',#453,#61);
#43=LINE('',#456,#62);
#44=LINE('',#457,#63);
#45=LINE('',#459,#64);
#46=LINE('',#465,#65);
#47=LINE('',#475,#66);
#48=VECTOR('',#336,3.6);
#49=VECTOR('',#345,3.6);
#50=VECTOR('',#350,20.);
#51=VECTOR('',#351,1.);
#52=VECTOR('',#352,20.);
#53=VECTOR('',#353,1.);
#54=VECTOR('',#356,20.);
#55=VECTOR('',#357,20.);
#56=VECTOR('',#358,20.);
#57=VECTOR('',#359,20.);
#58=VECTOR('',#362,26.8700576850887);
#59=VECTOR('',#363,1.00000000000021);
#60=VECTOR('',#364,20.);
#61=VECTOR('',#367,20.);
#62=VECTOR('',#370,1.00000000000021);
#63=VECTOR('',#371,26.8700576850887);
#64=VECTOR('',#374,20.);
#65=VECTOR('',#381,5.5);
#66=VECTOR('',#396,5.5);
#67=CIRCLE('',#292,3.6);
#68=CIRCLE('',#293,3.6);
#69=CIRCLE('',#294,3.6);
#70=CIRCLE('',#295,3.6);
#71=CIRCLE('',#297,3.6);
#72=CIRCLE('',#298,3.6);
#73=CIRCLE('',#306,5.5);
#74=CIRCLE('',#307,5.5);
#75=CIRCLE('',#312,5.5);
#76=CIRCLE('',#313,5.5);
#77=FACE_OUTER_BOUND('',#92,.T.);
#78=FACE_OUTER_BOUND('',#93,.T.);
#79=FACE_OUTER_BOUND('',#94,.T.);
#80=FACE_OUTER_BOUND('',#95,.T.);
#81=FACE_OUTER_BOUND('',#96,.T.);
#82=FACE_OUTER_BOUND('',#98,.T.);
#83=FACE_OUTER_BOUND('',#99,.T.);
#84=FACE_OUTER_BOUND('',#101,.T.);
#85=FACE_OUTER_BOUND('',#102,.T.);
#86=FACE_OUTER_BOUND('',#103,.T.);
#87=FACE_OUTER_BOUND('',#104,.T.);
#88=FACE_OUTER_BOUND('',#106,.T.);
#89=FACE_OUTER_BOUND('',#108,.T.);
#90=FACE_OUTER_BOUND('',#109,.T.);
#91=FACE_OUTER_BOUND('',#110,.T.);
#92=EDGE_LOOP('',(#179,#180,#181,#182));
#93=EDGE_LOOP('',(#183,#184,#185,#186,#187,#188));
#94=EDGE_LOOP('',(#189,#190,#191,#192));
#95=EDGE_LOOP('',(#193,#194,#195,#196));
#96=EDGE_LOOP('',(#197,#198,#199,#200));
#97=EDGE_LOOP('',(#201));
#98=EDGE_LOOP('',(#202,#203,#204,#205,#206));
#99=EDGE_LOOP('',(#207,#208,#209,#210));
#100=EDGE_LOOP('',(#211,#212));
#101=EDGE_LOOP('',(#213,#214,#215,#216,#217));
#102=EDGE_LOOP('',(#218,#219,#220,#221));
#103=EDGE_LOOP('',(#222,#223,#224,#225,#226,#227));
#104=EDGE_LOOP('',(#228,#229));
#105=EDGE_LOOP('',(#230));
#106=EDGE_LOOP('',(#231,#232));
#107=EDGE_LOOP('',(#233,#234));
#108=EDGE_LOOP('',(#235,#236,#237,#238,#239,#240));
#109=EDGE_LOOP('',(#241,#242,#243,#244));
#110=EDGE_LOOP('',(#245,#246,#247,#248));
#111=EDGE_LOOP('',(#249,#250));
#112=ELLIPSE('',#287,7.77817459305202,5.5);
#113=ELLIPSE('',#288,7.77817459305198,5.5);
#114=ELLIPSE('',#289,7.77817459305202,5.5);
#115=ELLIPSE('',#290,7.77817459305202,5.5);
#116=ELLIPSE('',#308,7.77817459305202,5.5);
#117=ELLIPSE('',#309,7.77817459305202,5.5);
#118=ELLIPSE('',#316,7.77817459305207,5.5);
#119=VERTEX_POINT('',#405);
#120=VERTEX_POINT('',#406);
#121=VERTEX_POINT('',#408);
#122=VERTEX_POINT('',#410);
#123=VERTEX_POINT('',#414);
#124=VERTEX_POINT('',#415);
#125=VERTEX_POINT('',#418);
#126=VERTEX_POINT('',#420);
#127=VERTEX_POINT('',#424);
#128=VERTEX_POINT('',#426);
#129=VERTEX_POINT('',#430);
#130=VERTEX_POINT('',#431);
#131=VERTEX_POINT('',#433);
#132=VERTEX_POINT('',#435);
#133=VERTEX_POINT('',#439);
#134=VERTEX_POINT('',#440);
#135=VERTEX_POINT('',#442);
#136=VERTEX_POINT('',#444);
#137=VERTEX_POINT('',#448);
#138=VERTEX_POINT('',#455);
#139=VERTEX_POINT('',#461);
#140=VERTEX_POINT('',#462);
#141=VERTEX_POINT('',#470);
#142=VERTEX_POINT('',#471);
#143=EDGE_CURVE('',#119,#120,#112,.F.);
#144=EDGE_CURVE('',#120,#121,#113,.F.);
#145=EDGE_CURVE('',#121,#122,#114,.F.);
#146=EDGE_CURVE('',#122,#119,#115,.F.);
#147=EDGE_CURVE('',#123,#124,#67,.T.);
#148=EDGE_CURVE('',#124,#123,#68,.T.);
#149=EDGE_CURVE('',#124,#125,#29,.T.);
#150=EDGE_CURVE('',#126,#125,#69,.F.);
#151=EDGE_CURVE('',#125,#126,#70,.F.);
#152=EDGE_CURVE('',#127,#127,#71,.T.);
#153=EDGE_CURVE('',#127,#128,#30,.T.);
#154=EDGE_CURVE('',#128,#128,#72,.T.);
#155=EDGE_CURVE('',#129,#130,#31,.T.);
#156=EDGE_CURVE('',#129,#131,#32,.T.);
#157=EDGE_CURVE('',#131,#132,#33,.T.);
#158=EDGE_CURVE('',#132,#130,#34,.T.);
#159=EDGE_CURVE('',#133,#134,#35,.T.);
#160=EDGE_CURVE('',#135,#133,#36,.T.);
#161=EDGE_CURVE('',#136,#135,#37,.T.);
#162=EDGE_CURVE('',#134,#136,#38,.T.);
#163=EDGE_CURVE('',#129,#137,#39,.T.);
#164=EDGE_CURVE('',#137,#133,#40,.T.);
#165=EDGE_CURVE('',#131,#134,#41,.T.);
#166=EDGE_CURVE('',#132,#136,#42,.T.);
#167=EDGE_CURVE('',#138,#135,#43,.T.);
#168=EDGE_CURVE('',#130,#138,#44,.T.);
#169=EDGE_CURVE('',#137,#138,#45,.T.);
#170=EDGE_CURVE('',#139,#140,#73,.T.);
#171=EDGE_CURVE('',#140,#139,#74,.T.);
#172=EDGE_CURVE('',#140,#119,#46,.T.);
#173=EDGE_CURVE('',#119,#122,#116,.T.);
#174=EDGE_CURVE('',#122,#119,#117,.T.);
#175=EDGE_CURVE('',#141,#142,#75,.T.);
#176=EDGE_CURVE('',#142,#141,#76,.T.);
#177=EDGE_CURVE('',#142,#122,#47,.T.);
#178=EDGE_CURVE('',#121,#120,#118,.F.);
#179=ORIENTED_EDGE('',*,*,#143,.T.);
#180=ORIENTED_EDGE('',*,*,#144,.T.);
#181=ORIENTED_EDGE('',*,*,#145,.T.);
#182=ORIENTED_EDGE('',*,*,#146,.T.);
#183=ORIENTED_EDGE('',*,*,#147,.F.);
#184=ORIENTED_EDGE('',*,*,#148,.F.);
#185=ORIENTED_EDGE('',*,*,#149,.T.);
#186=ORIENTED_EDGE('',*,*,#150,.F.);
#187=ORIENTED_EDGE('',*,*,#151,.F.);
#188=ORIENTED_EDGE('',*,*,#149,.F.);
#189=ORIENTED_EDGE('',*,*,#152,.T.);
#190=ORIENTED_EDGE('',*,*,#153,.T.);
#191=ORIENTED_EDGE('',*,*,#154,.F.);
#192=ORIENTED_EDGE('',*,*,#153,.F.);
#193=ORIENTED_EDGE('',*,*,#155,.F.);
#194=ORIENTED_EDGE('',*,*,#156,.T.);
#195=ORIENTED_EDGE('',*,*,#157,.T.);
#196=ORIENTED_EDGE('',*,*,#158,.T.);
#197=ORIENTED_EDGE('',*,*,#159,.F.);
#198=ORIENTED_EDGE('',*,*,#160,.F.);
#199=ORIENTED_EDGE('',*,*,#161,.F.);
#200=ORIENTED_EDGE('',*,*,#162,.F.);
#201=ORIENTED_EDGE('',*,*,#154,.T.);
#202=ORIENTED_EDGE('',*,*,#156,.F.);
#203=ORIENTED_EDGE('',*,*,#163,.T.);
#204=ORIENTED_EDGE('',*,*,#164,.T.);
#205=ORIENTED_EDGE('',*,*,#159,.T.);
#206=ORIENTED_EDGE('',*,*,#165,.F.);
#207=ORIENTED_EDGE('',*,*,#162,.T.);
#208=ORIENTED_EDGE('',*,*,#166,.F.);
#209=ORIENTED_EDGE('',*,*,#157,.F.);
#210=ORIENTED_EDGE('',*,*,#165,.T.);
#211=ORIENTED_EDGE('',*,*,#147,.T.);
#212=ORIENTED_EDGE('',*,*,#148,.T.);
#213=ORIENTED_EDGE('',*,*,#167,.F.);
#214=ORIENTED_EDGE('',*,*,#168,.F.);
#215=ORIENTED_EDGE('',*,*,#158,.F.);
#216=ORIENTED_EDGE('',*,*,#166,.T.);
#217=ORIENTED_EDGE('',*,*,#161,.T.);
#218=ORIENTED_EDGE('',*,*,#164,.F.);
#219=ORIENTED_EDGE('',*,*,#169,.T.);
#220=ORIENTED_EDGE('',*,*,#167,.T.);
#221=ORIENTED_EDGE('',*,*,#160,.T.);
#222=ORIENTED_EDGE('',*,*,#170,.F.);
#223=ORIENTED_EDGE('',*,*,#171,.F.);
#224=ORIENTED_EDGE('',*,*,#172,.T.);
#225=ORIENTED_EDGE('',*,*,#173,.T.);
#226=ORIENTED_EDGE('',*,*,#174,.T.);
#227=ORIENTED_EDGE('',*,*,#172,.F.);
#228=ORIENTED_EDGE('',*,*,#170,.T.);
#229=ORIENTED_EDGE('',*,*,#171,.T.);
#230=ORIENTED_EDGE('',*,*,#152,.F.);
#231=ORIENTED_EDGE('',*,*,#175,.T.);
#232=ORIENTED_EDGE('',*,*,#176,.T.);
#233=ORIENTED_EDGE('',*,*,#150,.T.);
#234=ORIENTED_EDGE('',*,*,#151,.T.);
#235=ORIENTED_EDGE('',*,*,#175,.F.);
#236=ORIENTED_EDGE('',*,*,#176,.F.);
#237=ORIENTED_EDGE('',*,*,#177,.T.);
#238=ORIENTED_EDGE('',*,*,#173,.F.);
#239=ORIENTED_EDGE('',*,*,#146,.F.);
#240=ORIENTED_EDGE('',*,*,#177,.F.);
#241=ORIENTED_EDGE('',*,*,#145,.F.);
#242=ORIENTED_EDGE('',*,*,#178,.T.);
#243=ORIENTED_EDGE('',*,*,#143,.F.);
#244=ORIENTED_EDGE('',*,*,#174,.F.);
#245=ORIENTED_EDGE('',*,*,#168,.T.);
#246=ORIENTED_EDGE('',*,*,#169,.F.);
#247=ORIENTED_EDGE('',*,*,#163,.F.);
#248=ORIENTED_EDGE('',*,*,#155,.T.);
#249=ORIENTED_EDGE('',*,*,#178,.F.);
#250=ORIENTED_EDGE('',*,*,#144,.F.);
#251=CYLINDRICAL_SURFACE('',#286,5.5);
#252=CYLINDRICAL_SURFACE('',#291,3.6);
#253=CYLINDRICAL_SURFACE('',#296,3.6);
#254=CYLINDRICAL_SURFACE('',#305,5.5);
#255=CYLINDRICAL_SURFACE('',#314,5.5);
#256=CYLINDRICAL_SURFACE('',#315,5.5);
#257=ADVANCED_FACE('',(#77),#251,.F.);
#258=ADVANCED_FACE('',(#78),#252,.F.);
#259=ADVANCED_FACE('',(#79),#253,.F.);
#260=ADVANCED_FACE('',(#80),#20,.T.);
#261=ADVANCED_FACE('',(#81,#15),#21,.F.);
#262=ADVANCED_FACE('',(#82),#22,.F.);
#263=ADVANCED_FACE('',(#83,#16),#23,.F.);
#264=ADVANCED_FACE('',(#84),#24,.F.);
#265=ADVANCED_FACE('',(#85),#25,.F.);
#266=ADVANCED_FACE('',(#86),#254,.F.);
#267=ADVANCED_FACE('',(#87,#17),#26,.T.);
#268=ADVANCED_FACE('',(#88,#18),#27,.T.);
#269=ADVANCED_FACE('',(#89),#255,.F.);
#270=ADVANCED_FACE('',(#90),#256,.F.);
#271=ADVANCED_FACE('',(#91,#19),#28,.F.);
#272=CLOSED_SHELL('',(#257,#258,#259,#260,#261,#262,#263,#264,#265,#266,
#267,#268,#269,#270,#271));
#273=DERIVED_UNIT_ELEMENT(#275,1.);
#274=DERIVED_UNIT_ELEMENT(#484,3.);
#275=(
MASS_UNIT()
NAMED_UNIT(*)
SI_UNIT(.KILO.,.GRAM.)
);
#276=DERIVED_UNIT((#273,#274));
#277=MEASURE_REPRESENTATION_ITEM('density measure',
POSITIVE_RATIO_MEASURE(2700.),#276);
#278=PROPERTY_DEFINITION_REPRESENTATION(#283,#280);
#279=PROPERTY_DEFINITION_REPRESENTATION(#284,#281);
#280=REPRESENTATION('material name',(#282),#481);
#281=REPRESENTATION('density',(#277),#481);
#282=DESCRIPTIVE_REPRESENTATION_ITEM(
'SolidWorks Materials|6061-T6 (SS)','SolidWorks Materials|6061-T6 (SS)');
#283=PROPERTY_DEFINITION('material property','material name',#491);
#284=PROPERTY_DEFINITION('material property','density of part',#491);
#285=AXIS2_PLACEMENT_3D('placement',#403,#318,#319);
#286=AXIS2_PLACEMENT_3D('',#404,#320,#321);
#287=AXIS2_PLACEMENT_3D('',#407,#322,#323);
#288=AXIS2_PLACEMENT_3D('',#409,#324,#325);
#289=AXIS2_PLACEMENT_3D('',#411,#326,#327);
#290=AXIS2_PLACEMENT_3D('',#412,#328,#329);
#291=AXIS2_PLACEMENT_3D('',#413,#330,#331);
#292=AXIS2_PLACEMENT_3D('',#416,#332,#333);
#293=AXIS2_PLACEMENT_3D('',#417,#334,#335);
#294=AXIS2_PLACEMENT_3D('',#421,#337,#338);
#295=AXIS2_PLACEMENT_3D('',#422,#339,#340);
#296=AXIS2_PLACEMENT_3D('',#423,#341,#342);
#297=AXIS2_PLACEMENT_3D('',#425,#343,#344);
#298=AXIS2_PLACEMENT_3D('',#428,#346,#347);
#299=AXIS2_PLACEMENT_3D('',#429,#348,#349);
#300=AXIS2_PLACEMENT_3D('',#438,#354,#355);
#301=AXIS2_PLACEMENT_3D('',#447,#360,#361);
#302=AXIS2_PLACEMENT_3D('',#452,#365,#366);
#303=AXIS2_PLACEMENT_3D('',#454,#368,#369);
#304=AXIS2_PLACEMENT_3D('',#458,#372,#373);
#305=AXIS2_PLACEMENT_3D('',#460,#375,#376);
#306=AXIS2_PLACEMENT_3D('',#463,#377,#378);
#307=AXIS2_PLACEMENT_3D('',#464,#379,#380);
#308=AXIS2_PLACEMENT_3D('',#466,#382,#383);
#309=AXIS2_PLACEMENT_3D('',#467,#384,#385);
#310=AXIS2_PLACEMENT_3D('',#468,#386,#387);
#311=AXIS2_PLACEMENT_3D('',#469,#388,#389);
#312=AXIS2_PLACEMENT_3D('',#472,#390,#391);
#313=AXIS2_PLACEMENT_3D('',#473,#392,#393);
#314=AXIS2_PLACEMENT_3D('',#474,#394,#395);
#315=AXIS2_PLACEMENT_3D('',#476,#397,#398);
#316=AXIS2_PLACEMENT_3D('',#477,#399,#400);
#317=AXIS2_PLACEMENT_3D('',#478,#401,#402);
#318=DIRECTION('axis',(0.,0.,1.));
#319=DIRECTION('refdir',(1.,0.,0.));
#320=DIRECTION('center_axis',(0.,0.,1.));
#321=DIRECTION('ref_axis',(-1.83697019872103E-16,-1.,0.));
#322=DIRECTION('center_axis',(1.83995210002005E-16,-0.707106781186548,0.707106781186548));
#323=DIRECTION('ref_axis',(-1.83995210002005E-16,0.707106781186547,0.707106781186547));
#324=DIRECTION('center_axis',(0.,-0.707106781186544,-0.707106781186552));
#325=DIRECTION('ref_axis',(0.,-0.707106781186552,0.707106781186544));
#326=DIRECTION('center_axis',(1.83995210002005E-16,-0.707106781186548,0.707106781186548));
#327=DIRECTION('ref_axis',(-1.83995210002005E-16,0.707106781186547,0.707106781186547));
#328=DIRECTION('center_axis',(-1.83995210002005E-16,0.707106781186548,0.707106781186548));
#329=DIRECTION('ref_axis',(1.83995210002005E-16,-0.707106781186547,0.707106781186547));
#330=DIRECTION('center_axis',(-2.60208521396521E-16,1.,0.));
#331=DIRECTION('ref_axis',(-1.,-2.60208521396521E-16,0.));
#332=DIRECTION('center_axis',(-2.60208521396521E-16,1.,0.));
#333=DIRECTION('ref_axis',(-1.,-2.60208521396521E-16,0.));
#334=DIRECTION('center_axis',(-2.60208521396521E-16,1.,0.));
#335=DIRECTION('ref_axis',(-1.,-2.60208521396521E-16,0.));
#336=DIRECTION('',(-2.60208521396521E-16,1.,0.));
#337=DIRECTION('center_axis',(-2.60208521396521E-16,1.,0.));
#338=DIRECTION('ref_axis',(-1.,-2.60208521396521E-16,0.));
#339=DIRECTION('center_axis',(-2.60208521396521E-16,1.,0.));
#340=DIRECTION('ref_axis',(-1.,-2.60208521396521E-16,0.));
#341=DIRECTION('center_axis',(0.,0.,-1.));
#342=DIRECTION('ref_axis',(-1.,0.,0.));
#343=DIRECTION('center_axis',(0.,0.,1.));
#344=DIRECTION('ref_axis',(1.,0.,0.));
#345=DIRECTION('',(0.,0.,-1.));
#346=DIRECTION('center_axis',(0.,0.,1.));
#347=DIRECTION('ref_axis',(1.,0.,0.));
#348=DIRECTION('center_axis',(0.,0.,1.));
#349=DIRECTION('ref_axis',(1.,0.,0.));
#350=DIRECTION('',(1.,0.,0.));
#351=DIRECTION('',(0.,-1.,0.));
#352=DIRECTION('',(1.,1.11022302462516E-16,0.));
#353=DIRECTION('',(0.,1.,0.));
#354=DIRECTION('center_axis',(0.,0.,1.));
#355=DIRECTION('ref_axis',(1.,0.,0.));
#356=DIRECTION('',(0.,-1.,0.));
#357=DIRECTION('',(-1.,-2.22044604925031E-16,0.));
#358=DIRECTION('',(0.,1.,0.));
#359=DIRECTION('',(1.,1.11022302462516E-16,0.));
#360=DIRECTION('center_axis',(1.,0.,0.));
#361=DIRECTION('ref_axis',(0.,0.,-1.));
#362=DIRECTION('',(0.,0.707106781186552,-0.707106781186544));
#363=DIRECTION('',(0.,0.,-1.));
#364=DIRECTION('',(0.,0.,-1.));
#365=DIRECTION('center_axis',(-8.67361737988404E-17,1.,0.));
#366=DIRECTION('ref_axis',(0.,0.,1.));
#367=DIRECTION('',(0.,0.,-1.));
#368=DIRECTION('center_axis',(-1.,0.,0.));
#369=DIRECTION('ref_axis',(0.,0.,1.));
#370=DIRECTION('',(0.,0.,-1.));
#371=DIRECTION('',(0.,0.707106781186552,-0.707106781186544));
#372=DIRECTION('center_axis',(2.60208521396521E-16,-1.,0.));
#373=DIRECTION('ref_axis',(0.,0.,-1.));
#374=DIRECTION('',(1.,0.,0.));
#375=DIRECTION('center_axis',(0.,0.,1.));
#376=DIRECTION('ref_axis',(1.,0.,0.));
#377=DIRECTION('center_axis',(0.,0.,1.));
#378=DIRECTION('ref_axis',(1.,0.,0.));
#379=DIRECTION('center_axis',(0.,0.,1.));
#380=DIRECTION('ref_axis',(1.,0.,0.));
#381=DIRECTION('',(0.,0.,1.));
#382=DIRECTION('center_axis',(1.83995210002005E-16,-0.707106781186548,0.707106781186548));
#383=DIRECTION('ref_axis',(-1.83995210002005E-16,0.707106781186547,0.707106781186547));
#384=DIRECTION('center_axis',(-1.83995210002005E-16,0.707106781186548,0.707106781186548));
#385=DIRECTION('ref_axis',(1.83995210002005E-16,-0.707106781186547,0.707106781186547));
#386=DIRECTION('center_axis',(0.,0.,1.));
#387=DIRECTION('ref_axis',(1.,0.,0.));
#388=DIRECTION('center_axis',(-2.60208521396521E-16,1.,0.));
#389=DIRECTION('ref_axis',(0.,0.,1.));
#390=DIRECTION('center_axis',(-2.60208521396521E-16,1.,0.));
#391=DIRECTION('ref_axis',(-1.,-2.60208521396521E-16,0.));
#392=DIRECTION('center_axis',(-2.60208521396521E-16,1.,0.));
#393=DIRECTION('ref_axis',(-1.,-2.60208521396521E-16,0.));
#394=DIRECTION('center_axis',(-2.60208521396521E-16,1.,0.));
#395=DIRECTION('ref_axis',(-1.,-2.60208521396521E-16,0.));
#396=DIRECTION('',(-2.60208521396521E-16,1.,0.));
#397=DIRECTION('center_axis',(-2.60208521396521E-16,1.,0.));
#398=DIRECTION('ref_axis',(1.83697019872103E-16,4.4821642342103E-32,-1.));
#399=DIRECTION('center_axis',(0.,-0.707106781186544,-0.707106781186552));
#400=DIRECTION('ref_axis',(-3.67990420004008E-16,0.707106781186551,-0.707106781186543));
#401=DIRECTION('center_axis',(0.,-0.707106781186544,-0.707106781186552));
#402=DIRECTION('ref_axis',(-1.,0.,0.));
#403=CARTESIAN_POINT('',(0.,0.,0.));
#404=CARTESIAN_POINT('Origin',(1.73472347597681E-15,-1.73472347597681E-15,
-6.5));
#405=CARTESIAN_POINT('',(-5.5,-3.16587034365767E-15,0.));
#406=CARTESIAN_POINT('',(-5.47722557505165,0.500000000000052,0.500000000000055));
#407=CARTESIAN_POINT('Origin',(8.67361737988404E-16,-1.73472347597681E-15,
0.));
#408=CARTESIAN_POINT('',(5.47722557505166,0.500000000000053,0.500000000000053));
#409=CARTESIAN_POINT('Origin',(1.73472347597681E-15,-1.73472347597681E-15,
1.0000000000001));
#410=CARTESIAN_POINT('',(5.5,-3.03576608295941E-16,0.));
#411=CARTESIAN_POINT('Origin',(8.67361737988404E-16,-1.73472347597681E-15,
0.));
#412=CARTESIAN_POINT('Origin',(8.67361737988404E-16,-1.73472347597681E-15,
0.));
#413=CARTESIAN_POINT('Origin',(2.60208521396521E-15,-10.,0.));
#414=CARTESIAN_POINT('',(-3.6,-10.,0.));
#415=CARTESIAN_POINT('',(3.6,-10.,-4.40872847693047E-16));
#416=CARTESIAN_POINT('Origin',(2.60208521396521E-15,-10.,0.));
#417=CARTESIAN_POINT('Origin',(2.60208521396521E-15,-10.,0.));
#418=CARTESIAN_POINT('',(3.6,-6.5,-4.40872847693047E-16));
#419=CARTESIAN_POINT('',(3.6,-10.,-4.40872847693047E-16));
#420=CARTESIAN_POINT('',(-3.6,-6.5,0.));
#421=CARTESIAN_POINT('Origin',(1.69135538907739E-15,-6.5,0.));
#422=CARTESIAN_POINT('Origin',(1.69135538907739E-15,-6.5,0.));
#423=CARTESIAN_POINT('Origin',(1.73472347597681E-15,-1.73472347597681E-15,
10.));
#424=CARTESIAN_POINT('',(3.6,-1.73472347597681E-15,-6.5));
#425=CARTESIAN_POINT('Origin',(1.73472347597681E-15,-1.73472347597681E-15,
-6.5));
#426=CARTESIAN_POINT('',(3.6,-1.73472347597681E-15,-10.));
#427=CARTESIAN_POINT('',(3.6,-2.17559632366985E-15,10.));
#428=CARTESIAN_POINT('Origin',(1.73472347597681E-15,-1.73472347597681E-15,
-10.));
#429=CARTESIAN_POINT('Origin',(0.,0.,10.));
#430=CARTESIAN_POINT('',(-10.,-9.,10.));
#431=CARTESIAN_POINT('',(10.,-9.,10.));
#432=CARTESIAN_POINT('',(-10.,-9.,10.));
#433=CARTESIAN_POINT('',(-10.,-10.,10.));
#434=CARTESIAN_POINT('',(-10.,-9.,10.));
#435=CARTESIAN_POINT('',(10.,-10.,10.));
#436=CARTESIAN_POINT('',(-10.,-10.,10.));
#437=CARTESIAN_POINT('',(10.,-10.,10.));
#438=CARTESIAN_POINT('Origin',(0.,0.,-10.));
#439=CARTESIAN_POINT('',(-10.,10.,-10.));
#440=CARTESIAN_POINT('',(-10.,-10.,-10.));
#441=CARTESIAN_POINT('',(-10.,9.99999999999999,-10.));
#442=CARTESIAN_POINT('',(10.,10.,-10.));
#443=CARTESIAN_POINT('',(10.,10.,-10.));
#444=CARTESIAN_POINT('',(10.,-10.,-10.));
#445=CARTESIAN_POINT('',(10.,-10.,-10.));
#446=CARTESIAN_POINT('',(-10.,-10.,-10.));
#447=CARTESIAN_POINT('Origin',(-10.,-10.,10.));
#448=CARTESIAN_POINT('',(-10.,10.,-8.99999999999979));
#449=CARTESIAN_POINT('',(-10.,-9.,10.));
#450=CARTESIAN_POINT('',(-10.,10.,-8.99999999999979));
#451=CARTESIAN_POINT('',(-10.,-10.,10.));
#452=CARTESIAN_POINT('Origin',(10.,-10.,10.));
#453=CARTESIAN_POINT('',(10.,-10.,10.));
#454=CARTESIAN_POINT('Origin',(10.,-10.,10.));
#455=CARTESIAN_POINT('',(10.,10.,-8.99999999999979));
#456=CARTESIAN_POINT('',(10.,10.,-8.99999999999979));
#457=CARTESIAN_POINT('',(10.,-9.,10.));
#458=CARTESIAN_POINT('Origin',(10.,10.,10.));
#459=CARTESIAN_POINT('',(-10.,10.,-8.99999999999979));
#460=CARTESIAN_POINT('Origin',(1.73472347597681E-15,-1.73472347597681E-15,
-6.5));
#461=CARTESIAN_POINT('',(5.5,-1.73472347597681E-15,-6.5));
#462=CARTESIAN_POINT('',(-5.5,-2.40827921550785E-15,-6.5));
#463=CARTESIAN_POINT('Origin',(1.73472347597681E-15,-1.73472347597681E-15,
-6.5));
#464=CARTESIAN_POINT('Origin',(1.73472347597681E-15,-1.73472347597681E-15,
-6.5));
#465=CARTESIAN_POINT('',(-5.5,-2.40827921550785E-15,-6.5));
#466=CARTESIAN_POINT('Origin',(8.67361737988404E-16,-1.73472347597681E-15,
0.));
#467=CARTESIAN_POINT('Origin',(8.67361737988404E-16,-1.73472347597681E-15,
0.));
#468=CARTESIAN_POINT('Origin',(1.73472347597681E-15,-1.73472347597681E-15,
-6.5));
#469=CARTESIAN_POINT('Origin',(1.69135538907739E-15,-6.5,0.));
#470=CARTESIAN_POINT('',(-5.5,-6.50000000000001,0.));
#471=CARTESIAN_POINT('',(5.5,-6.5,-6.73555739531044E-16));
#472=CARTESIAN_POINT('Origin',(1.69135538907739E-15,-6.5,0.));
#473=CARTESIAN_POINT('Origin',(1.69135538907739E-15,-6.5,0.));
#474=CARTESIAN_POINT('Origin',(1.69135538907739E-15,-6.5,0.));
#475=CARTESIAN_POINT('',(5.5,-6.5,-6.73555739531044E-16));
#476=CARTESIAN_POINT('Origin',(1.69135538907739E-15,-6.5,0.));
#477=CARTESIAN_POINT('Origin',(-2.6020852139655E-16,1.00000000000011,0.));
#478=CARTESIAN_POINT('Origin',(-10.,-9.,10.));
#479=UNCERTAINTY_MEASURE_WITH_UNIT(LENGTH_MEASURE(0.01),#483,
'DISTANCE_ACCURACY_VALUE',
'Maximum model space distance between geometric entities at asserted c
onnectivities');
#480=UNCERTAINTY_MEASURE_WITH_UNIT(LENGTH_MEASURE(0.01),#483,
'DISTANCE_ACCURACY_VALUE',
'Maximum model space distance between geometric entities at asserted c
onnectivities');
#481=(
GEOMETRIC_REPRESENTATION_CONTEXT(3)
GLOBAL_UNCERTAINTY_ASSIGNED_CONTEXT((#479))
GLOBAL_UNIT_ASSIGNED_CONTEXT((#483,#485,#486))
REPRESENTATION_CONTEXT('','3D')
);
#482=(
GEOMETRIC_REPRESENTATION_CONTEXT(3)
GLOBAL_UNCERTAINTY_ASSIGNED_CONTEXT((#480))
GLOBAL_UNIT_ASSIGNED_CONTEXT((#483,#485,#486))
REPRESENTATION_CONTEXT('','3D')
);
#483=(
LENGTH_UNIT()
NAMED_UNIT(*)
SI_UNIT(.MILLI.,.METRE.)
);
#484=(
LENGTH_UNIT()
NAMED_UNIT(*)
SI_UNIT($,.METRE.)
);
#485=(
NAMED_UNIT(*)
PLANE_ANGLE_UNIT()
SI_UNIT($,.RADIAN.)
);
#486=(
NAMED_UNIT(*)
SI_UNIT($,.STERADIAN.)
SOLID_ANGLE_UNIT()
);
#487=SHAPE_DEFINITION_REPRESENTATION(#488,#489);
#488=PRODUCT_DEFINITION_SHAPE('',$,#491);
#489=SHAPE_REPRESENTATION('',(#285),#481);
#490=PRODUCT_DEFINITION_CONTEXT('part definition',#495,'design');
#491=PRODUCT_DEFINITION('Black Angle Corner Connector',
'Black Angle Corner Connector v1',#492,#490);
#492=PRODUCT_DEFINITION_FORMATION('',$,#497);
#493=PRODUCT_RELATED_PRODUCT_CATEGORY('Black Angle Corner Connector v1',
'Black Angle Corner Connector v1',(#497));
#494=APPLICATION_PROTOCOL_DEFINITION('international standard',
'automotive_design',2009,#495);
#495=APPLICATION_CONTEXT(
'Core Data for Automotive Mechanical Design Process');
#496=PRODUCT_CONTEXT('part definition',#495,'mechanical');
#497=PRODUCT('Black Angle Corner Connector',
'Black Angle Corner Connector v1',$,(#496));
#498=PRESENTATION_STYLE_ASSIGNMENT((#499));
#499=SURFACE_STYLE_USAGE(.BOTH.,#500);
#500=SURFACE_SIDE_STYLE('',(#501));
#501=SURFACE_STYLE_FILL_AREA(#502);
#502=FILL_AREA_STYLE('Steel - Satin',(#503));
#503=FILL_AREA_STYLE_COLOUR('Steel - Satin',#504);
#504=COLOUR_RGB('Steel - Satin',0.627450980392157,0.627450980392157,0.627450980392157);
ENDSEC;
END-ISO-10303-21;
