ISO-10303-21;
HEADER;
/* Generated by software containing ST-Developer
 * from STEP Tools, Inc. (www.steptools.com) 
 */
/* OPTION: using custom renumber hook */

FILE_DESCRIPTION(
/* description */ ('STEP AP214'),
/* implementation_level */ '2;1');

FILE_NAME(
/* name */ '60f55066ce379331500b856e',
/* time_stamp */ '2021-07-19T10:13:59+00:00',
/* author */ (''),
/* organization */ (''),
/* preprocessor_version */ 'ST-DEVELOPER v18.1',
/* originating_system */ '  ',
/* authorisation */ '  ');

FILE_SCHEMA (('AUTOMOTIVE_DESIGN {1 0 10303 214 3 1 1}'));
ENDSEC;

DATA;
#10=PROPERTY_DEFINITION_REPRESENTATION(#14,#12);
#11=PROPERTY_DEFINITION_REPRESENTATION(#15,#13);
#12=REPRESENTATION('',(#16),#372);
#13=REPRESENTATION('',(#17),#372);
#14=PROPERTY_DEFINITION('pmi validation property','',#377);
#15=PROPERTY_DEFINITION('pmi validation property','',#377);
#16=VALUE_REPRESENTATION_ITEM('number of annotations',COUNT_MEASURE(0.));
#17=VALUE_REPRESENTATION_ITEM('number of views',COUNT_MEASURE(0.));
#18=SHAPE_REPRESENTATION_RELATIONSHIP('','',#222,#19);
#19=ADVANCED_BREP_SHAPE_REPRESENTATION('',(#220),#372);
#20=TOROIDAL_SURFACE('',#241,0.0107,0.0003);
#21=TOROIDAL_SURFACE('',#242,0.0043,0.0003);
#22=TOROIDAL_SURFACE('',#254,0.0107,0.0003);
#23=TOROIDAL_SURFACE('',#255,0.0043,0.0003);
#24=OVER_RIDING_STYLED_ITEM('',(#201),#185,#199);
#25=OVER_RIDING_STYLED_ITEM('',(#202),#193,#199);
#26=PLANE('',#227);
#27=PLANE('',#232);
#28=PLANE('',#236);
#29=PLANE('',#243);
#30=PLANE('',#248);
#31=PLANE('',#252);
#32=ORIENTED_EDGE('',*,*,#64,.T.);
#33=ORIENTED_EDGE('',*,*,#65,.F.);
#34=ORIENTED_EDGE('',*,*,#66,.T.);
#35=ORIENTED_EDGE('',*,*,#67,.F.);
#36=ORIENTED_EDGE('',*,*,#68,.F.);
#37=ORIENTED_EDGE('',*,*,#67,.T.);
#38=ORIENTED_EDGE('',*,*,#69,.F.);
#39=ORIENTED_EDGE('',*,*,#68,.T.);
#40=ORIENTED_EDGE('',*,*,#70,.F.);
#41=ORIENTED_EDGE('',*,*,#69,.T.);
#42=ORIENTED_EDGE('',*,*,#71,.T.);
#43=ORIENTED_EDGE('',*,*,#70,.T.);
#44=ORIENTED_EDGE('',*,*,#72,.T.);
#45=ORIENTED_EDGE('',*,*,#73,.F.);
#46=ORIENTED_EDGE('',*,*,#71,.F.);
#47=ORIENTED_EDGE('',*,*,#72,.F.);
#48=ORIENTED_EDGE('',*,*,#64,.F.);
#49=ORIENTED_EDGE('',*,*,#66,.F.);
#50=ORIENTED_EDGE('',*,*,#74,.F.);
#51=ORIENTED_EDGE('',*,*,#75,.T.);
#52=ORIENTED_EDGE('',*,*,#76,.T.);
#53=ORIENTED_EDGE('',*,*,#75,.F.);
#54=ORIENTED_EDGE('',*,*,#77,.T.);
#55=ORIENTED_EDGE('',*,*,#76,.F.);
#56=ORIENTED_EDGE('',*,*,#78,.T.);
#57=ORIENTED_EDGE('',*,*,#77,.F.);
#58=ORIENTED_EDGE('',*,*,#79,.F.);
#59=ORIENTED_EDGE('',*,*,#78,.F.);
#60=ORIENTED_EDGE('',*,*,#79,.T.);
#61=ORIENTED_EDGE('',*,*,#73,.T.);
#62=ORIENTED_EDGE('',*,*,#65,.T.);
#63=ORIENTED_EDGE('',*,*,#74,.T.);
#64=EDGE_CURVE('',#80,#80,#96,.F.);
#65=EDGE_CURVE('',#81,#81,#97,.F.);
#66=EDGE_CURVE('',#82,#82,#98,.T.);
#67=EDGE_CURVE('',#83,#83,#99,.T.);
#68=EDGE_CURVE('',#84,#84,#100,.T.);
#69=EDGE_CURVE('',#85,#85,#101,.T.);
#70=EDGE_CURVE('',#86,#86,#102,.T.);
#71=EDGE_CURVE('',#87,#87,#103,.F.);
#72=EDGE_CURVE('',#88,#88,#104,.T.);
#73=EDGE_CURVE('',#89,#89,#105,.T.);
#74=EDGE_CURVE('',#90,#90,#106,.T.);
#75=EDGE_CURVE('',#91,#91,#107,.T.);
#76=EDGE_CURVE('',#92,#92,#108,.T.);
#77=EDGE_CURVE('',#93,#93,#109,.T.);
#78=EDGE_CURVE('',#94,#94,#110,.T.);
#79=EDGE_CURVE('',#95,#95,#111,.F.);
#80=VERTEX_POINT('',#325);
#81=VERTEX_POINT('',#327);
#82=VERTEX_POINT('',#330);
#83=VERTEX_POINT('',#332);
#84=VERTEX_POINT('',#335);
#85=VERTEX_POINT('',#338);
#86=VERTEX_POINT('',#341);
#87=VERTEX_POINT('',#344);
#88=VERTEX_POINT('',#347);
#89=VERTEX_POINT('',#349);
#90=VERTEX_POINT('',#354);
#91=VERTEX_POINT('',#356);
#92=VERTEX_POINT('',#359);
#93=VERTEX_POINT('',#362);
#94=VERTEX_POINT('',#365);
#95=VERTEX_POINT('',#368);
#96=CIRCLE('',#225,0.004);
#97=CIRCLE('',#226,0.004);
#98=CIRCLE('',#228,0.0043);
#99=CIRCLE('',#229,0.006075);
#100=CIRCLE('',#231,0.006075);
#101=CIRCLE('',#233,0.0096);
#102=CIRCLE('',#235,0.0096);
#103=CIRCLE('',#237,0.0107);
#104=CIRCLE('',#239,0.011);
#105=CIRCLE('',#240,0.011);
#106=CIRCLE('',#244,0.0043);
#107=CIRCLE('',#245,0.006075);
#108=CIRCLE('',#247,0.006075);
#109=CIRCLE('',#249,0.0096);
#110=CIRCLE('',#251,0.0096);
#111=CIRCLE('',#253,0.0107);
#112=EDGE_LOOP('',(#32));
#113=EDGE_LOOP('',(#33));
#114=EDGE_LOOP('',(#34));
#115=EDGE_LOOP('',(#35));
#116=EDGE_LOOP('',(#36));
#117=EDGE_LOOP('',(#37));
#118=EDGE_LOOP('',(#38));
#119=EDGE_LOOP('',(#39));
#120=EDGE_LOOP('',(#40));
#121=EDGE_LOOP('',(#41));
#122=EDGE_LOOP('',(#42));
#123=EDGE_LOOP('',(#43));
#124=EDGE_LOOP('',(#44));
#125=EDGE_LOOP('',(#45));
#126=EDGE_LOOP('',(#46));
#127=EDGE_LOOP('',(#47));
#128=EDGE_LOOP('',(#48));
#129=EDGE_LOOP('',(#49));
#130=EDGE_LOOP('',(#50));
#131=EDGE_LOOP('',(#51));
#132=EDGE_LOOP('',(#52));
#133=EDGE_LOOP('',(#53));
#134=EDGE_LOOP('',(#54));
#135=EDGE_LOOP('',(#55));
#136=EDGE_LOOP('',(#56));
#137=EDGE_LOOP('',(#57));
#138=EDGE_LOOP('',(#58));
#139=EDGE_LOOP('',(#59));
#140=EDGE_LOOP('',(#60));
#141=EDGE_LOOP('',(#61));
#142=EDGE_LOOP('',(#62));
#143=EDGE_LOOP('',(#63));
#144=FACE_BOUND('',#112,.T.);
#145=FACE_BOUND('',#113,.T.);
#146=FACE_BOUND('',#114,.T.);
#147=FACE_BOUND('',#115,.T.);
#148=FACE_BOUND('',#116,.T.);
#149=FACE_BOUND('',#117,.T.);
#150=FACE_BOUND('',#118,.T.);
#151=FACE_BOUND('',#119,.T.);
#152=FACE_BOUND('',#120,.T.);
#153=FACE_BOUND('',#121,.T.);
#154=FACE_BOUND('',#122,.T.);
#155=FACE_BOUND('',#123,.T.);
#156=FACE_BOUND('',#124,.T.);
#157=FACE_BOUND('',#125,.T.);
#158=FACE_BOUND('',#126,.T.);
#159=FACE_BOUND('',#127,.T.);
#160=FACE_BOUND('',#128,.T.);
#161=FACE_BOUND('',#129,.T.);
#162=FACE_BOUND('',#130,.T.);
#163=FACE_BOUND('',#131,.T.);
#164=FACE_BOUND('',#132,.T.);
#165=FACE_BOUND('',#133,.T.);
#166=FACE_BOUND('',#134,.T.);
#167=FACE_BOUND('',#135,.T.);
#168=FACE_BOUND('',#136,.T.);
#169=FACE_BOUND('',#137,.T.);
#170=FACE_BOUND('',#138,.T.);
#171=FACE_BOUND('',#139,.T.);
#172=FACE_BOUND('',#140,.T.);
#173=FACE_BOUND('',#141,.T.);
#174=FACE_BOUND('',#142,.T.);
#175=FACE_BOUND('',#143,.T.);
#176=CYLINDRICAL_SURFACE('',#224,0.004);
#177=CYLINDRICAL_SURFACE('',#230,0.006075);
#178=CYLINDRICAL_SURFACE('',#234,0.0096);
#179=CYLINDRICAL_SURFACE('',#238,0.011);
#180=CYLINDRICAL_SURFACE('',#246,0.006075);
#181=CYLINDRICAL_SURFACE('',#250,0.0096);
#182=ADVANCED_FACE('',(#144,#145),#176,.F.);
#183=ADVANCED_FACE('',(#146,#147),#26,.F.);
#184=ADVANCED_FACE('',(#148,#149),#177,.T.);
#185=ADVANCED_FACE('',(#150,#151),#27,.F.);
#186=ADVANCED_FACE('',(#152,#153),#178,.F.);
#187=ADVANCED_FACE('',(#154,#155),#28,.F.);
#188=ADVANCED_FACE('',(#156,#157),#179,.T.);
#189=ADVANCED_FACE('',(#158,#159),#20,.T.);
#190=ADVANCED_FACE('',(#160,#161),#21,.T.);
#191=ADVANCED_FACE('',(#162,#163),#29,.F.);
#192=ADVANCED_FACE('',(#164,#165),#180,.T.);
#193=ADVANCED_FACE('',(#166,#167),#30,.F.);
#194=ADVANCED_FACE('',(#168,#169),#181,.F.);
#195=ADVANCED_FACE('',(#170,#171),#31,.F.);
#196=ADVANCED_FACE('',(#172,#173),#22,.T.);
#197=ADVANCED_FACE('',(#174,#175),#23,.T.);
#198=CLOSED_SHELL('',(#182,#183,#184,#185,#186,#187,#188,#189,#190,#191,
#192,#193,#194,#195,#196,#197));
#199=STYLED_ITEM('',(#200),#220);
#200=PRESENTATION_STYLE_ASSIGNMENT((#203));
#201=PRESENTATION_STYLE_ASSIGNMENT((#204));
#202=PRESENTATION_STYLE_ASSIGNMENT((#205));
#203=SURFACE_STYLE_USAGE(.BOTH.,#206);
#204=SURFACE_STYLE_USAGE(.BOTH.,#207);
#205=SURFACE_STYLE_USAGE(.BOTH.,#208);
#206=SURFACE_SIDE_STYLE('',(#209));
#207=SURFACE_SIDE_STYLE('',(#210));
#208=SURFACE_SIDE_STYLE('',(#211));
#209=SURFACE_STYLE_FILL_AREA(#212);
#210=SURFACE_STYLE_FILL_AREA(#213);
#211=SURFACE_STYLE_FILL_AREA(#214);
#212=FILL_AREA_STYLE('',(#215));
#213=FILL_AREA_STYLE('',(#216));
#214=FILL_AREA_STYLE('',(#217));
#215=FILL_AREA_STYLE_COLOUR('',#218);
#216=FILL_AREA_STYLE_COLOUR('',#219);
#217=FILL_AREA_STYLE_COLOUR('',#219);
#218=COLOUR_RGB('',0.917647058823529,0.917647058823529,0.917647058823529);
#219=COLOUR_RGB('',0.941176470588235,0.874509803921569,0.67843137254902);
#220=MANIFOLD_SOLID_BREP('608-2Z - Deep groove ball bearing',#198);
#221=SHAPE_DEFINITION_REPRESENTATION(#377,#222);
#222=SHAPE_REPRESENTATION('608-2Z - Deep groove ball bearing',(#223),#372);
#223=AXIS2_PLACEMENT_3D('',#322,#256,#257);
#224=AXIS2_PLACEMENT_3D('',#323,#258,#259);
#225=AXIS2_PLACEMENT_3D('',#324,#260,#261);
#226=AXIS2_PLACEMENT_3D('',#326,#262,#263);
#227=AXIS2_PLACEMENT_3D('',#328,#264,#265);
#228=AXIS2_PLACEMENT_3D('',#329,#266,#267);
#229=AXIS2_PLACEMENT_3D('',#331,#268,#269);
#230=AXIS2_PLACEMENT_3D('',#333,#270,#271);
#231=AXIS2_PLACEMENT_3D('',#334,#272,#273);
#232=AXIS2_PLACEMENT_3D('',#336,#274,#275);
#233=AXIS2_PLACEMENT_3D('',#337,#276,#277);
#234=AXIS2_PLACEMENT_3D('',#339,#278,#279);
#235=AXIS2_PLACEMENT_3D('',#340,#280,#281);
#236=AXIS2_PLACEMENT_3D('',#342,#282,#283);
#237=AXIS2_PLACEMENT_3D('',#343,#284,#285);
#238=AXIS2_PLACEMENT_3D('',#345,#286,#287);
#239=AXIS2_PLACEMENT_3D('',#346,#288,#289);
#240=AXIS2_PLACEMENT_3D('',#348,#290,#291);
#241=AXIS2_PLACEMENT_3D('',#350,#292,#293);
#242=AXIS2_PLACEMENT_3D('',#351,#294,#295);
#243=AXIS2_PLACEMENT_3D('',#352,#296,#297);
#244=AXIS2_PLACEMENT_3D('',#353,#298,#299);
#245=AXIS2_PLACEMENT_3D('',#355,#300,#301);
#246=AXIS2_PLACEMENT_3D('',#357,#302,#303);
#247=AXIS2_PLACEMENT_3D('',#358,#304,#305);
#248=AXIS2_PLACEMENT_3D('',#360,#306,#307);
#249=AXIS2_PLACEMENT_3D('',#361,#308,#309);
#250=AXIS2_PLACEMENT_3D('',#363,#310,#311);
#251=AXIS2_PLACEMENT_3D('',#364,#312,#313);
#252=AXIS2_PLACEMENT_3D('',#366,#314,#315);
#253=AXIS2_PLACEMENT_3D('',#367,#316,#317);
#254=AXIS2_PLACEMENT_3D('',#369,#318,#319);
#255=AXIS2_PLACEMENT_3D('',#370,#320,#321);
#256=DIRECTION('',(0.,0.,1.));
#257=DIRECTION('',(1.,0.,0.));
#258=DIRECTION('',(-1.,0.,0.));
#259=DIRECTION('',(0.,0.,1.));
#260=DIRECTION('',(-1.,0.,0.));
#261=DIRECTION('',(0.,0.,1.));
#262=DIRECTION('',(-1.,0.,0.));
#263=DIRECTION('',(0.,0.,1.));
#264=DIRECTION('',(-1.,0.,0.));
#265=DIRECTION('',(0.,0.,1.));
#266=DIRECTION('',(-1.,0.,0.));
#267=DIRECTION('',(0.,0.,1.));
#268=DIRECTION('',(-1.,0.,0.));
#269=DIRECTION('',(0.,0.,1.));
#270=DIRECTION('',(-1.,0.,0.));
#271=DIRECTION('',(0.,0.,1.));
#272=DIRECTION('',(-1.,0.,0.));
#273=DIRECTION('',(0.,0.,1.));
#274=DIRECTION('',(-1.,0.,0.));
#275=DIRECTION('',(0.,0.,1.));
#276=DIRECTION('',(-1.,0.,0.));
#277=DIRECTION('',(0.,0.,1.));
#278=DIRECTION('',(-1.,0.,0.));
#279=DIRECTION('',(0.,0.,1.));
#280=DIRECTION('',(-1.,0.,0.));
#281=DIRECTION('',(0.,0.,1.));
#282=DIRECTION('',(-1.,0.,0.));
#283=DIRECTION('',(0.,0.,1.));
#284=DIRECTION('',(-1.,0.,0.));
#285=DIRECTION('',(0.,0.,1.));
#286=DIRECTION('',(-1.,0.,0.));
#287=DIRECTION('',(0.,0.,1.));
#288=DIRECTION('',(-1.,0.,0.));
#289=DIRECTION('',(0.,0.,1.));
#290=DIRECTION('',(-1.,0.,0.));
#291=DIRECTION('',(0.,0.,1.));
#292=DIRECTION('',(-1.,0.,0.));
#293=DIRECTION('',(0.,0.,1.));
#294=DIRECTION('',(-1.,0.,0.));
#295=DIRECTION('',(0.,0.,1.));
#296=DIRECTION('',(1.,0.,0.));
#297=DIRECTION('',(0.,0.,1.));
#298=DIRECTION('',(-1.,0.,0.));
#299=DIRECTION('',(0.,0.,1.));
#300=DIRECTION('',(-1.,0.,0.));
#301=DIRECTION('',(0.,0.,1.));
#302=DIRECTION('',(1.,0.,0.));
#303=DIRECTION('',(0.,0.,1.));
#304=DIRECTION('',(-1.,0.,0.));
#305=DIRECTION('',(0.,0.,1.));
#306=DIRECTION('',(1.,0.,0.));
#307=DIRECTION('',(0.,0.,1.));
#308=DIRECTION('',(-1.,0.,0.));
#309=DIRECTION('',(0.,0.,1.));
#310=DIRECTION('',(1.,0.,0.));
#311=DIRECTION('',(0.,0.,1.));
#312=DIRECTION('',(-1.,0.,0.));
#313=DIRECTION('',(0.,0.,1.));
#314=DIRECTION('',(1.,0.,0.));
#315=DIRECTION('',(0.,0.,1.));
#316=DIRECTION('',(-1.,0.,0.));
#317=DIRECTION('',(0.,0.,1.));
#318=DIRECTION('',(1.,0.,0.));
#319=DIRECTION('',(0.,0.,1.));
#320=DIRECTION('',(1.,0.,0.));
#321=DIRECTION('',(0.,0.,1.));
#322=CARTESIAN_POINT('',(0.,0.,0.));
#323=CARTESIAN_POINT('',(0.00175,0.,0.));
#324=CARTESIAN_POINT('',(0.0032,0.,0.));
#325=CARTESIAN_POINT('',(0.0032,0.,0.004));
#326=CARTESIAN_POINT('',(-0.0032,0.,0.));
#327=CARTESIAN_POINT('',(-0.0032,0.,0.004));
#328=CARTESIAN_POINT('',(0.0035,0.,0.0050375));
#329=CARTESIAN_POINT('',(0.0035,0.,0.));
#330=CARTESIAN_POINT('',(0.0035,0.,0.0043));
#331=CARTESIAN_POINT('',(0.0035,0.,0.));
#332=CARTESIAN_POINT('',(0.0035,0.,0.006075));
#333=CARTESIAN_POINT('',(0.00175,0.,0.));
#334=CARTESIAN_POINT('',(0.0034,0.,0.));
#335=CARTESIAN_POINT('',(0.0034,0.,0.006075));
#336=CARTESIAN_POINT('',(0.0034,0.,0.0078375));
#337=CARTESIAN_POINT('',(0.0034,0.,0.));
#338=CARTESIAN_POINT('',(0.0034,0.,0.0096));
#339=CARTESIAN_POINT('',(0.00175,0.,0.));
#340=CARTESIAN_POINT('',(0.0035,0.,0.));
#341=CARTESIAN_POINT('',(0.0035,0.,0.0096));
#342=CARTESIAN_POINT('',(0.0035,0.,0.0103));
#343=CARTESIAN_POINT('',(0.0035,0.,0.));
#344=CARTESIAN_POINT('',(0.0035,0.,0.0107));
#345=CARTESIAN_POINT('',(0.00175,0.,0.));
#346=CARTESIAN_POINT('',(0.0032,0.,0.));
#347=CARTESIAN_POINT('',(0.0032,0.,0.011));
#348=CARTESIAN_POINT('',(-0.0032,0.,0.));
#349=CARTESIAN_POINT('',(-0.0032,0.,0.011));
#350=CARTESIAN_POINT('',(0.0032,0.,0.));
#351=CARTESIAN_POINT('',(0.0032,0.,0.));
#352=CARTESIAN_POINT('',(-0.0035,0.,0.0050375));
#353=CARTESIAN_POINT('',(-0.0035,0.,0.));
#354=CARTESIAN_POINT('',(-0.0035,0.,0.0043));
#355=CARTESIAN_POINT('',(-0.0035,0.,0.));
#356=CARTESIAN_POINT('',(-0.0035,0.,0.006075));
#357=CARTESIAN_POINT('',(-0.00175,0.,0.));
#358=CARTESIAN_POINT('',(-0.0034,0.,0.));
#359=CARTESIAN_POINT('',(-0.0034,0.,0.006075));
#360=CARTESIAN_POINT('',(-0.0034,0.,0.0078375));
#361=CARTESIAN_POINT('',(-0.0034,0.,0.));
#362=CARTESIAN_POINT('',(-0.0034,0.,0.0096));
#363=CARTESIAN_POINT('',(-0.00175,0.,0.));
#364=CARTESIAN_POINT('',(-0.0035,0.,0.));
#365=CARTESIAN_POINT('',(-0.0035,0.,0.0096));
#366=CARTESIAN_POINT('',(-0.0035,0.,0.0103));
#367=CARTESIAN_POINT('',(-0.0035,0.,0.));
#368=CARTESIAN_POINT('',(-0.0035,0.,0.0107));
#369=CARTESIAN_POINT('',(-0.0032,0.,0.));
#370=CARTESIAN_POINT('',(-0.0032,0.,0.));
#371=MECHANICAL_DESIGN_GEOMETRIC_PRESENTATION_REPRESENTATION('',(#199,#24,
#25),#372);
#372=(
GEOMETRIC_REPRESENTATION_CONTEXT(3)
GLOBAL_UNCERTAINTY_ASSIGNED_CONTEXT((#373))
GLOBAL_UNIT_ASSIGNED_CONTEXT((#376,#375,#374))
REPRESENTATION_CONTEXT('608-2Z - Deep groove ball bearing',
'TOP_LEVEL_ASSEMBLY_PART')
);
#373=UNCERTAINTY_MEASURE_WITH_UNIT(LENGTH_MEASURE(5.E-6),#376,
'DISTANCE_ACCURACY_VALUE','Maximum Tolerance applied to model');
#374=(
NAMED_UNIT(*)
SI_UNIT($,.STERADIAN.)
SOLID_ANGLE_UNIT()
);
#375=(
NAMED_UNIT(*)
PLANE_ANGLE_UNIT()
SI_UNIT($,.RADIAN.)
);
#376=(
LENGTH_UNIT()
NAMED_UNIT(*)
SI_UNIT($,.METRE.)
);
#377=PRODUCT_DEFINITION_SHAPE('','',#378);
#378=PRODUCT_DEFINITION('','',#380,#379);
#379=PRODUCT_DEFINITION_CONTEXT('',#386,'design');
#380=PRODUCT_DEFINITION_FORMATION_WITH_SPECIFIED_SOURCE('','',#382,
 .NOT_KNOWN.);
#381=PRODUCT_RELATED_PRODUCT_CATEGORY('','',(#382));
#382=PRODUCT('608-2Z - Deep groove ball bearing',
'608-2Z - Deep groove ball bearing','608-2Z - Deep groove ball bearing',
(#384));
#383=PRODUCT_CATEGORY('','');
#384=PRODUCT_CONTEXT('',#386,'mechanical');
#385=APPLICATION_PROTOCOL_DEFINITION('international standard',
'automotive_design',2010,#386);
#386=APPLICATION_CONTEXT(
'core data for automotive mechanical design processes');
ENDSEC;
END-ISO-10303-21;
